ISO-10303-21;
HEADER;
FILE_DESCRIPTION (( 'STEP AP203' ),
    '1' );
FILE_NAME ('TLR2A5mƒ¶.STEP',
    '2019-11-13T09:08:12',
    ( '' ),
    ( '' ),
    'SwSTEP 2.0',
    'SolidWorks 2019',
    '' );
FILE_SCHEMA (( 'CONFIG_CONTROL_DESIGN' ));
ENDSEC;

DATA;
#1 = COORDINATED_UNIVERSAL_TIME_OFFSET ( 9, 0, .AHEAD. ) ;
#2 = ADVANCED_FACE ( 'NONE', ( #221 ), #164, .T. ) ;
#3 = VECTOR ( 'NONE', #151, 1000.000000000000000 ) ;
#4 = APPROVAL_PERSON_ORGANIZATION ( #192, #230, #276 ) ;
#5 = PERSON_AND_ORGANIZATION ( #140, #171 ) ;
#6 = ORIENTED_EDGE ( 'NONE', *, *, #114, .T. ) ;
#7 = LINE ( 'NONE', #68, #125 ) ;
#8 = PRODUCT_DEFINITION ( 'UNKNOWN', '', #199, #147 ) ;
#9 = ORIENTED_EDGE ( 'NONE', *, *, #154, .T. ) ;
#10 = DIRECTION ( 'NONE',  ( -1.000000000000000000, 0.0000000000000000000, 0.0000000000000000000 ) ) ;
#11 = EDGE_LOOP ( 'NONE', ( #277, #19, #62, #126 ) ) ;
#12 = DIRECTION ( 'NONE',  ( 0.0000000000000000000, 0.0000000000000000000, 1.000000000000000000 ) ) ;
#13 = ORIENTED_EDGE ( 'NONE', *, *, #298, .F. ) ;
#14 = EDGE_CURVE ( 'NONE', #295, #289, #331, .T. ) ;
#15 = CARTESIAN_POINT ( 'NONE',  ( 0.0000000000000000000, -1.000000000000000000, 0.2999999999999999889 ) ) ;
#16 = PLANE ( 'NONE',  #300 ) ;
#17 = EDGE_LOOP ( 'NONE', ( #232, #152, #358, #155 ) ) ;
#18 = PERSON_AND_ORGANIZATION_ROLE ( 'design_owner' ) ;
#19 = ORIENTED_EDGE ( 'NONE', *, *, #211, .T. ) ;
#20 = CARTESIAN_POINT ( 'NONE',  ( 0.0000000000000000000, -0.6750000000000000444, -0.01250000000000000069 ) ) ;
#21 = CC_DESIGN_PERSON_AND_ORGANIZATION_ASSIGNMENT ( #176, #29, ( #149 ) ) ;
#22 = DIRECTION ( 'NONE',  ( 1.000000000000000000, 0.0000000000000000000, 0.0000000000000000000 ) ) ;
#23 = APPLICATION_PROTOCOL_DEFINITION ( 'international standard', 'config_control_design', 1994, #108 ) ;
#24 = CARTESIAN_POINT ( 'NONE',  ( -0.6250000000000000000, 1.000000000000000000, -0.01250000000000000069 ) ) ;
#25 = DIRECTION ( 'NONE',  ( -1.000000000000000000, 0.0000000000000000000, 0.0000000000000000000 ) ) ;
#26 = CARTESIAN_POINT ( 'NONE',  ( 0.0000000000000000000, 0.0000000000000000000, 0.2999999999999999889 ) ) ;
#27 = APPROVAL_STATUS ( 'not_yet_approved' ) ;
#28 = CARTESIAN_POINT ( 'NONE',  ( -0.6250000000000000000, 0.6750000000000000444, -0.01250000000000000069 ) ) ;
#29 = PERSON_AND_ORGANIZATION_ROLE ( 'classification_officer' ) ;
#30 = SHAPE_DEFINITION_REPRESENTATION ( #110, #122 ) ;
#31 = VECTOR ( 'NONE', #320, 1000.000000000000000 ) ;
#32 = LOCAL_TIME ( 18, 8, 12.00000000000000000, #1 ) ;
#33 = ORIENTED_EDGE ( 'NONE', *, *, #298, .T. ) ;
#34 = DIRECTION ( 'NONE',  ( 0.0000000000000000000, 1.000000000000000000, 0.0000000000000000000 ) ) ;
#35 = ORIENTED_EDGE ( 'NONE', *, *, #254, .F. ) ;
#36 = LINE ( 'NONE', #324, #198 ) ;
#37 = VECTOR ( 'NONE', #341, 1000.000000000000000 ) ;
#38 = ORIENTED_EDGE ( 'NONE', *, *, #227, .T. ) ;
#39 = CARTESIAN_POINT ( 'NONE',  ( -0.6250000000000000000, -0.6750000000000000444, 0.0000000000000000000 ) ) ;
#40 = CC_DESIGN_PERSON_AND_ORGANIZATION_ASSIGNMENT ( #217, #190, ( #8 ) ) ;
#41 = CARTESIAN_POINT ( 'NONE',  ( 0.0000000000000000000, 0.0000000000000000000, 0.06000000000000000472 ) ) ;
#42 = VERTEX_POINT ( 'NONE', #24 ) ;
#43 = FACE_OUTER_BOUND ( 'NONE', #326, .T. ) ;
#44 = DIRECTION ( 'NONE',  ( 1.000000000000000000, 0.0000000000000000000, 0.0000000000000000000 ) ) ;
#45 = VECTOR ( 'NONE', #103, 1000.000000000000000 ) ;
#46 = DIRECTION ( 'NONE',  ( 0.0000000000000000000, 0.0000000000000000000, -1.000000000000000000 ) ) ;
#47 = ORIENTED_EDGE ( 'NONE', *, *, #119, .F. ) ;
#48 = APPROVAL_DATE_TIME ( #359, #92 ) ;
#49 = EDGE_CURVE ( 'NONE', #209, #333, #255, .T. ) ;
#50 = FACE_OUTER_BOUND ( 'NONE', #85, .T. ) ;
#51 = CARTESIAN_POINT ( 'NONE',  ( -0.6250000000000000000, -0.3499999999999999778, 0.0000000000000000000 ) ) ;
#52 = ORIENTED_EDGE ( 'NONE', *, *, #14, .T. ) ;
#53 = DIRECTION ( 'NONE',  ( 1.000000000000000000, 0.0000000000000000000, 0.0000000000000000000 ) ) ;
#54 = AXIS2_PLACEMENT_3D ( 'NONE', #73, #290, #12 ) ;
#55 = DIRECTION ( 'NONE',  ( 0.0000000000000000000, -1.000000000000000000, 0.0000000000000000000 ) ) ;
#56 = ADVANCED_FACE ( 'NONE', ( #50 ), #224, .T. ) ;
#57 = LINE ( 'NONE', #51, #283 ) ;
#58 = DIRECTION ( 'NONE',  ( 0.0000000000000000000, 0.0000000000000000000, 1.000000000000000000 ) ) ;
#59 = EDGE_CURVE ( 'NONE', #42, #207, #247, .T. ) ;
#60 = COORDINATED_UNIVERSAL_TIME_OFFSET ( 9, 0, .AHEAD. ) ;
#61 = CC_DESIGN_APPROVAL ( #279, ( #149 ) ) ;
#62 = ORIENTED_EDGE ( 'NONE', *, *, #154, .F. ) ;
#63 = EDGE_CURVE ( 'NONE', #67, #100, #362, .T. ) ;
#64 = FACE_OUTER_BOUND ( 'NONE', #310, .T. ) ;
#65 = ORIENTED_EDGE ( 'NONE', *, *, #63, .T. ) ;
#66 = DIRECTION ( 'NONE',  ( 0.0000000000000000000, 0.0000000000000000000, -1.000000000000000000 ) ) ;
#67 = VERTEX_POINT ( 'NONE', #80 ) ;
#68 = CARTESIAN_POINT ( 'NONE',  ( 0.0000000000000000000, 0.3499999999999999778, -0.01250000000000000069 ) ) ;
#69 = ORIENTED_EDGE ( 'NONE', *, *, #227, .F. ) ;
#70 = CC_DESIGN_SECURITY_CLASSIFICATION ( #149, ( #199 ) ) ;
#71 = CARTESIAN_POINT ( 'NONE',  ( -0.6250000000000000000, -1.000000000000000000, 0.0000000000000000000 ) ) ;
#72 = ORIENTED_EDGE ( 'NONE', *, *, #119, .T. ) ;
#73 = CARTESIAN_POINT ( 'NONE',  ( 0.0000000000000000000, 1.000000000000000000, 0.0000000000000000000 ) ) ;
#74 = LINE ( 'NONE', #115, #93 ) ;
#75 = DIRECTION ( 'NONE',  ( 1.000000000000000000, 0.0000000000000000000, 0.0000000000000000000 ) ) ;
#76 = CARTESIAN_POINT ( 'NONE',  ( -0.6250000000000000000, 1.000000000000000000, 0.0000000000000000000 ) ) ;
#77 = AXIS2_PLACEMENT_3D ( 'NONE', #41, #66, #270 ) ;
#78 = EDGE_CURVE ( 'NONE', #196, #252, #306, .T. ) ;
#79 = CARTESIAN_POINT ( 'NONE',  ( 0.6250000000000000000, -0.3499999999999999778, -0.01250000000000000069 ) ) ;
#80 = CARTESIAN_POINT ( 'NONE',  ( -0.6250000000000000000, 0.3499999999999999778, 0.06000000000000000472 ) ) ;
#81 = DIRECTION ( 'NONE',  ( 0.0000000000000000000, 0.0000000000000000000, 1.000000000000000000 ) ) ;
#82 = DIRECTION ( 'NONE',  ( 0.0000000000000000000, 0.0000000000000000000, 1.000000000000000000 ) ) ;
#83 = COORDINATED_UNIVERSAL_TIME_OFFSET ( 9, 0, .AHEAD. ) ;
#84 = ADVANCED_FACE ( 'NONE', ( #197 ), #138, .T. ) ;
#85 = EDGE_LOOP ( 'NONE', ( #242, #319, #157, #13 ) ) ;
#86 = VECTOR ( 'NONE', #53, 1000.000000000000000 ) ;
#87 = CC_DESIGN_APPROVAL ( #230, ( #199 ) ) ;
#88 = LINE ( 'NONE', #28, #355 ) ;
#89 = DATE_AND_TIME ( #368, #287 ) ;
#90 = PERSON_AND_ORGANIZATION_ROLE ( 'design_supplier' ) ;
#91 = APPROVAL_DATE_TIME ( #343, #279 ) ;
#92 = APPROVAL ( #27, 'UNSPECIFIED' ) ;
#93 = VECTOR ( 'NONE', #44, 1000.000000000000000 ) ;
#94 = PERSON_AND_ORGANIZATION_ROLE ( 'creator' ) ;
#95 = APPROVAL_STATUS ( 'not_yet_approved' ) ;
#96 = PRODUCT_RELATED_PRODUCT_CATEGORY ( 'detail', '', ( #218 ) ) ;
#97 = CARTESIAN_POINT ( 'NONE',  ( -0.6250000000000000000, -0.3499999999999999778, -0.01250000000000000069 ) ) ;
#98 = AXIS2_PLACEMENT_3D ( 'NONE', #223, #135, #302 ) ;
#99 = DIRECTION ( 'NONE',  ( 0.0000000000000000000, 0.0000000000000000000, 1.000000000000000000 ) ) ;
#100 = VERTEX_POINT ( 'NONE', #172 ) ;
#101 = CARTESIAN_POINT ( 'NONE',  ( 0.6250000000000000000, 0.3499999999999999778, -0.01250000000000000069 ) ) ;
#102 = ORIENTED_EDGE ( 'NONE', *, *, #195, .F. ) ;
#103 = DIRECTION ( 'NONE',  ( -1.000000000000000000, 0.0000000000000000000, 0.0000000000000000000 ) ) ;
#104 = DIRECTION ( 'NONE',  ( 1.000000000000000000, 0.0000000000000000000, 0.0000000000000000000 ) ) ;
#105 = ORIENTED_EDGE ( 'NONE', *, *, #78, .T. ) ;
#106 = DIRECTION ( 'NONE',  ( 0.0000000000000000000, 0.0000000000000000000, 1.000000000000000000 ) ) ;
#107 = VERTEX_POINT ( 'NONE', #367 ) ;
#108 = APPLICATION_CONTEXT ( 'configuration controlled 3d designs of mechanical parts and assemblies' ) ;
#109 = DATE_AND_TIME ( #361, #229 ) ;
#110 = PRODUCT_DEFINITION_SHAPE ( 'NONE', 'NONE',  #8 ) ;
#111 = DIRECTION ( 'NONE',  ( 0.0000000000000000000, -1.000000000000000000, 0.0000000000000000000 ) ) ;
#112 = VECTOR ( 'NONE', #127, 1000.000000000000000 ) ;
#113 = DIRECTION ( 'NONE',  ( 1.000000000000000000, 0.0000000000000000000, 0.0000000000000000000 ) ) ;
#114 = EDGE_CURVE ( 'NONE', #177, #271, #297, .T. ) ;
#115 = CARTESIAN_POINT ( 'NONE',  ( 0.0000000000000000000, -1.000000000000000000, -0.01250000000000000069 ) ) ;
#116 = CARTESIAN_POINT ( 'NONE',  ( 0.0000000000000000000, 1.000000000000000000, -0.01250000000000000069 ) ) ;
#117 = DIRECTION ( 'NONE',  ( 0.0000000000000000000, 1.000000000000000000, 0.0000000000000000000 ) ) ;
#118 = MANIFOLD_SOLID_BREP ( '²ÝÎß°Ä1', #308 ) ;
#119 = EDGE_CURVE ( 'NONE', #271, #209, #74, .T. ) ;
#120 = PERSON_AND_ORGANIZATION ( #140, #171 ) ;
#121 = DATE_TIME_ROLE ( 'classification_date' ) ;
#122 = ADVANCED_BREP_SHAPE_REPRESENTATION ( 'TLR2A5mƒ¶', ( #118, #241 ), #213 ) ;
#123 = VERTEX_POINT ( 'NONE', #219 ) ;
#124 = DIRECTION ( 'NONE',  ( 0.0000000000000000000, -1.000000000000000000, 0.0000000000000000000 ) ) ;
#125 = VECTOR ( 'NONE', #132, 1000.000000000000000 ) ;
#126 = ORIENTED_EDGE ( 'NONE', *, *, #318, .F. ) ;
#127 = DIRECTION ( 'NONE',  ( 0.0000000000000000000, -1.000000000000000000, 0.0000000000000000000 ) ) ;
#128 = EDGE_LOOP ( 'NONE', ( #168, #131, #204, #102 ) ) ;
#129 = CC_DESIGN_PERSON_AND_ORGANIZATION_ASSIGNMENT ( #5, #90, ( #199 ) ) ;
#130 = CARTESIAN_POINT ( 'NONE',  ( 0.6250000000000000000, -1.000000000000000000, -0.01250000000000000069 ) ) ;
#131 = ORIENTED_EDGE ( 'NONE', *, *, #274, .F. ) ;
#132 = DIRECTION ( 'NONE',  ( -1.000000000000000000, 0.0000000000000000000, 0.0000000000000000000 ) ) ;
#133 = CARTESIAN_POINT ( 'NONE',  ( 0.0000000000000000000, 0.3499999999999999778, 0.06000000000000000472 ) ) ;
#134 = CARTESIAN_POINT ( 'NONE',  ( -0.6250000000000000000, 0.0000000000000000000, 0.06000000000000000472 ) ) ;
#135 = DIRECTION ( 'NONE',  ( 0.0000000000000000000, -1.000000000000000000, 0.0000000000000000000 ) ) ;
#136 = ORIENTED_EDGE ( 'NONE', *, *, #345, .F. ) ;
#137 = CARTESIAN_POINT ( 'NONE',  ( -0.6250000000000000000, -1.000000000000000000, 0.2999999999999999889 ) ) ;
#138 = PLANE ( 'NONE',  #346 ) ;
#139 = AXIS2_PLACEMENT_3D ( 'NONE', #26, #82, #22 ) ;
#140 = PERSON ( 'UNSPECIFIED', 'UNSPECIFIED', 'UNSPECIFIED', ('UNSPECIFIED'), ('UNSPECIFIED'), ('UNSPECIFIED') ) ;
#141 = DIRECTION ( 'NONE',  ( 0.0000000000000000000, -1.000000000000000000, 0.0000000000000000000 ) ) ;
#142 = CARTESIAN_POINT ( 'NONE',  ( 0.0000000000000000000, 0.6750000000000000444, -0.01250000000000000069 ) ) ;
#143 = LINE ( 'NONE', #116, #86 ) ;
#144 = LINE ( 'NONE', #312, #344 ) ;
#145 = VECTOR ( 'NONE', #244, 1000.000000000000000 ) ;
#146 = EDGE_CURVE ( 'NONE', #278, #42, #88, .T. ) ;
#147 = DESIGN_CONTEXT ( 'detailed design', #108, 'design' ) ;
#148 = VECTOR ( 'NONE', #141, 1000.000000000000000 ) ;
#149 = SECURITY_CLASSIFICATION ( '', '', #313 ) ;
#150 = ORIENTED_EDGE ( 'NONE', *, *, #114, .F. ) ;
#151 = DIRECTION ( 'NONE',  ( -1.000000000000000000, 0.0000000000000000000, 0.0000000000000000000 ) ) ;
#152 = ORIENTED_EDGE ( 'NONE', *, *, #305, .F. ) ;
#153 = LINE ( 'NONE', #71, #314 ) ;
#154 = EDGE_CURVE ( 'NONE', #295, #123, #200, .T. ) ;
#155 = ORIENTED_EDGE ( 'NONE', *, *, #345, .T. ) ;
#156 = CARTESIAN_POINT ( 'NONE',  ( 0.0000000000000000000, -0.3499999999999999778, 0.06000000000000000472 ) ) ;
#157 = ORIENTED_EDGE ( 'NONE', *, *, #211, .F. ) ;
#158 = CARTESIAN_POINT ( 'NONE',  ( 0.6250000000000000000, 0.3499999999999999778, 0.06000000000000000472 ) ) ;
#159 = ORIENTED_EDGE ( 'NONE', *, *, #59, .F. ) ;
#160 = EDGE_CURVE ( 'NONE', #278, #67, #144, .T. ) ;
#161 = FACE_OUTER_BOUND ( 'NONE', #11, .T. ) ;
#162 = ORIENTED_EDGE ( 'NONE', *, *, #146, .T. ) ;
#163 =( NAMED_UNIT ( * ) PLANE_ANGLE_UNIT ( ) SI_UNIT ( $, .RADIAN. ) );
#164 = PLANE ( 'NONE',  #234 ) ;
#165 = APPROVAL_STATUS ( 'not_yet_approved' ) ;
#166 = ORIENTED_EDGE ( 'NONE', *, *, #293, .T. ) ;
#167 = PLANE ( 'NONE',  #249 ) ;
#168 = ORIENTED_EDGE ( 'NONE', *, *, #78, .F. ) ;
#169 = VECTOR ( 'NONE', #58, 1000.000000000000000 ) ;
#170 = FACE_OUTER_BOUND ( 'NONE', #321, .T. ) ;
#171 = ORGANIZATION ( 'UNSPECIFIED', 'UNSPECIFIED', '' ) ;
#172 = CARTESIAN_POINT ( 'NONE',  ( -0.6250000000000000000, -0.3499999999999999778, 0.06000000000000000472 ) ) ;
#173 = DIRECTION ( 'NONE',  ( 0.0000000000000000000, 0.0000000000000000000, 1.000000000000000000 ) ) ;
#174 = AXIS2_PLACEMENT_3D ( 'NONE', #327, #124, #208 ) ;
#175 = EDGE_CURVE ( 'NONE', #209, #107, #282, .T. ) ;
#176 = PERSON_AND_ORGANIZATION ( #140, #171 ) ;
#177 = VERTEX_POINT ( 'NONE', #97 ) ;
#178 = FACE_OUTER_BOUND ( 'NONE', #17, .T. ) ;
#179 = EDGE_LOOP ( 'NONE', ( #328, #363, #323, #236, #105, #69, #353, #9 ) ) ;
#180 = PLANE ( 'NONE',  #54 ) ;
#181 = ADVANCED_FACE ( 'NONE', ( #64 ), #202, .T. ) ;
#182 = ORIENTED_EDGE ( 'NONE', *, *, #246, .T. ) ;
#183 = CARTESIAN_POINT ( 'NONE',  ( -0.6250000000000000000, 1.000000000000000000, 0.2999999999999999889 ) ) ;
#184 = VECTOR ( 'NONE', #303, 1000.000000000000000 ) ;
#185 = CARTESIAN_POINT ( 'NONE',  ( -0.6250000000000000000, -1.000000000000000000, -0.01250000000000000069 ) ) ;
#186 = ADVANCED_FACE ( 'NONE', ( #178 ), #16, .T. ) ;
#187 = ORIENTED_EDGE ( 'NONE', *, *, #318, .T. ) ;
#188 = DIRECTION ( 'NONE',  ( -1.000000000000000000, 0.0000000000000000000, 0.0000000000000000000 ) ) ;
#189 = CARTESIAN_POINT ( 'NONE',  ( 0.6250000000000000000, -0.6750000000000000444, -0.01250000000000000069 ) ) ;
#190 = PERSON_AND_ORGANIZATION_ROLE ( 'creator' ) ;
#191 = ORIENTED_EDGE ( 'NONE', *, *, #49, .F. ) ;
#192 = PERSON_AND_ORGANIZATION ( #140, #171 ) ;
#193 = CARTESIAN_POINT ( 'NONE',  ( 0.6250000000000000000, 0.6750000000000000444, -0.01250000000000000069 ) ) ;
#194 = APPLICATION_PROTOCOL_DEFINITION ( 'international standard', 'config_control_design', 1994, #316 ) ;
#195 = EDGE_CURVE ( 'NONE', #252, #67, #264, .T. ) ;
#196 = VERTEX_POINT ( 'NONE', #266 ) ;
#197 = FACE_OUTER_BOUND ( 'NONE', #179, .T. ) ;
#198 = VECTOR ( 'NONE', #233, 1000.000000000000000 ) ;
#199 = PRODUCT_DEFINITION_FORMATION_WITH_SPECIFIED_SOURCE ( 'ANY', '', #218, .NOT_KNOWN. ) ;
#200 = LINE ( 'NONE', #228, #37 ) ;
#201 = CALENDAR_DATE ( 2019, 13, 11 ) ;
#202 = PLANE ( 'NONE',  #174 ) ;
#203 = AXIS2_PLACEMENT_3D ( 'NONE', #39, #10, #99 ) ;
#204 = ORIENTED_EDGE ( 'NONE', *, *, #63, .F. ) ;
#205 = EDGE_CURVE ( 'NONE', #289, #278, #7, .T. ) ;
#206 = PLANE ( 'NONE',  #77 ) ;
#207 = VERTEX_POINT ( 'NONE', #183 ) ;
#208 = DIRECTION ( 'NONE',  ( 0.0000000000000000000, 0.0000000000000000000, -1.000000000000000000 ) ) ;
#209 = VERTEX_POINT ( 'NONE', #130 ) ;
#210 = DIRECTION ( 'NONE',  ( 0.0000000000000000000, 0.0000000000000000000, 1.000000000000000000 ) ) ;
#211 = EDGE_CURVE ( 'NONE', #207, #123, #36, .T. ) ;
#212 = VECTOR ( 'NONE', #104, 1000.000000000000000 ) ;
#213 =( GEOMETRIC_REPRESENTATION_CONTEXT ( 3 ) GLOBAL_UNCERTAINTY_ASSIGNED_CONTEXT ( ( #285 ) ) GLOBAL_UNIT_ASSIGNED_CONTEXT ( ( #225, #163, #332 ) ) REPRESENTATION_CONTEXT ( 'NONE', 'WORKASPACE' ) );
#214 = ORIENTED_EDGE ( 'NONE', *, *, #205, .F. ) ;
#215 = DIRECTION ( 'NONE',  ( 0.0000000000000000000, 0.0000000000000000000, 1.000000000000000000 ) ) ;
#216 = ORIENTED_EDGE ( 'NONE', *, *, #175, .T. ) ;
#217 = PERSON_AND_ORGANIZATION ( #140, #171 ) ;
#218 = PRODUCT ( 'TLR2A5mƒ¶', 'TLR2A5mƒ¶', '', ( #281 ) ) ;
#219 = CARTESIAN_POINT ( 'NONE',  ( 0.6250000000000000000, 1.000000000000000000, 0.2999999999999999889 ) ) ;
#220 = VECTOR ( 'NONE', #55, 1000.000000000000000 ) ;
#221 = FACE_OUTER_BOUND ( 'NONE', #275, .T. ) ;
#222 = EDGE_CURVE ( 'NONE', #123, #107, #294, .T. ) ;
#223 = CARTESIAN_POINT ( 'NONE',  ( 0.0000000000000000000, 0.3499999999999999778, 0.0000000000000000000 ) ) ;
#224 = PLANE ( 'NONE',  #139 ) ;
#225 =( LENGTH_UNIT ( ) NAMED_UNIT ( * ) SI_UNIT ( .MILLI., .METRE. ) );
#226 = DIRECTION ( 'NONE',  ( 0.0000000000000000000, 1.000000000000000000, 0.0000000000000000000 ) ) ;
#227 = EDGE_CURVE ( 'NONE', #289, #252, #243, .T. ) ;
#228 = CARTESIAN_POINT ( 'NONE',  ( 0.6250000000000000000, 1.000000000000000000, 0.0000000000000000000 ) ) ;
#229 = LOCAL_TIME ( 18, 8, 12.00000000000000000, #83 ) ;
#230 = APPROVAL ( #165, 'UNSPECIFIED' ) ;
#231 = APPROVAL_PERSON_ORGANIZATION ( #120, #279, #315 ) ;
#232 = ORIENTED_EDGE ( 'NONE', *, *, #274, .T. ) ;
#233 = DIRECTION ( 'NONE',  ( 1.000000000000000000, 0.0000000000000000000, 0.0000000000000000000 ) ) ;
#234 = AXIS2_PLACEMENT_3D ( 'NONE', #142, #280, #366 ) ;
#235 = CARTESIAN_POINT ( 'NONE',  ( 0.0000000000000000000, -0.3499999999999999778, 0.0000000000000000000 ) ) ;
#236 = ORIENTED_EDGE ( 'NONE', *, *, #305, .T. ) ;
#237 = LINE ( 'NONE', #15, #45 ) ;
#238 = ORIENTED_EDGE ( 'NONE', *, *, #246, .F. ) ;
#239 = CARTESIAN_POINT ( 'NONE',  ( 0.6250000000000000000, 1.000000000000000000, -0.01250000000000000069 ) ) ;
#240 = VECTOR ( 'NONE', #251, 1000.000000000000000 ) ;
#241 = AXIS2_PLACEMENT_3D ( 'NONE', #253, #81, #75 ) ;
#242 = ORIENTED_EDGE ( 'NONE', *, *, #293, .F. ) ;
#243 = LINE ( 'NONE', #288, #292 ) ;
#244 = DIRECTION ( 'NONE',  ( 0.0000000000000000000, 0.0000000000000000000, 1.000000000000000000 ) ) ;
#245 = CALENDAR_DATE ( 2019, 13, 11 ) ;
#246 = EDGE_CURVE ( 'NONE', #271, #301, #153, .T. ) ;
#247 = LINE ( 'NONE', #76, #145 ) ;
#248 = PLANE ( 'NONE',  #98 ) ;
#249 = AXIS2_PLACEMENT_3D ( 'NONE', #20, #46, #25 ) ;
#250 = CARTESIAN_POINT ( 'NONE',  ( 0.6250000000000000000, -0.6750000000000000444, 0.0000000000000000000 ) ) ;
#251 = DIRECTION ( 'NONE',  ( 0.0000000000000000000, 0.0000000000000000000, 1.000000000000000000 ) ) ;
#252 = VERTEX_POINT ( 'NONE', #158 ) ;
#253 = CARTESIAN_POINT ( 'NONE',  ( 0.0000000000000000000, 0.0000000000000000000, 0.0000000000000000000 ) ) ;
#254 = EDGE_CURVE ( 'NONE', #333, #177, #329, .T. ) ;
#255 = LINE ( 'NONE', #189, #267 ) ;
#256 = CALENDAR_DATE ( 2019, 13, 11 ) ;
#257 = VECTOR ( 'NONE', #188, 1000.000000000000000 ) ;
#258 = CARTESIAN_POINT ( 'NONE',  ( 0.6250000000000000000, -1.000000000000000000, 0.0000000000000000000 ) ) ;
#259 = APPROVAL_DATE_TIME ( #317, #230 ) ;
#260 = ADVANCED_FACE ( 'NONE', ( #43 ), #348, .T. ) ;
#261 = COORDINATED_UNIVERSAL_TIME_OFFSET ( 9, 0, .AHEAD. ) ;
#262 = VECTOR ( 'NONE', #111, 1000.000000000000000 ) ;
#263 = LOCAL_TIME ( 18, 8, 12.00000000000000000, #365 ) ;
#264 = LINE ( 'NONE', #133, #257 ) ;
#265 = ORIENTED_EDGE ( 'NONE', *, *, #146, .F. ) ;
#266 = CARTESIAN_POINT ( 'NONE',  ( 0.6250000000000000000, -0.3499999999999999778, 0.06000000000000000472 ) ) ;
#267 = VECTOR ( 'NONE', #226, 1000.000000000000000 ) ;
#268 = ORIENTED_EDGE ( 'NONE', *, *, #160, .F. ) ;
#269 = CARTESIAN_POINT ( 'NONE',  ( -0.6250000000000000000, 0.3499999999999999778, -0.01250000000000000069 ) ) ;
#270 = DIRECTION ( 'NONE',  ( -1.000000000000000000, 0.0000000000000000000, 0.0000000000000000000 ) ) ;
#271 = VERTEX_POINT ( 'NONE', #185 ) ;
#272 = CARTESIAN_POINT ( 'NONE',  ( -0.6250000000000000000, 0.0000000000000000000, 0.2999999999999999889 ) ) ;
#273 = ORIENTED_EDGE ( 'NONE', *, *, #160, .T. ) ;
#274 = EDGE_CURVE ( 'NONE', #100, #196, #350, .T. ) ;
#275 = EDGE_LOOP ( 'NONE', ( #52, #338, #162, #187 ) ) ;
#276 = APPROVAL_ROLE ( '' ) ;
#277 = ORIENTED_EDGE ( 'NONE', *, *, #59, .T. ) ;
#278 = VERTEX_POINT ( 'NONE', #269 ) ;
#279 = APPROVAL ( #95, 'UNSPECIFIED' ) ;
#280 = DIRECTION ( 'NONE',  ( 0.0000000000000000000, 0.0000000000000000000, -1.000000000000000000 ) ) ;
#281 = MECHANICAL_CONTEXT ( 'NONE', #316, 'mechanical' ) ;
#282 = LINE ( 'NONE', #258, #169 ) ;
#283 = VECTOR ( 'NONE', #106, 1000.000000000000000 ) ;
#284 = ADVANCED_FACE ( 'NONE', ( #296 ), #206, .T. ) ;
#285 = UNCERTAINTY_MEASURE_WITH_UNIT (LENGTH_MEASURE( 1.000000000000000082E-05 ), #225, 'distance_accuracy_value', 'NONE');
#286 = ADVANCED_FACE ( 'NONE', ( #161 ), #180, .T. ) ;
#287 = LOCAL_TIME ( 18, 8, 12.00000000000000000, #261 ) ;
#288 = CARTESIAN_POINT ( 'NONE',  ( 0.6250000000000000000, 0.3499999999999999778, 0.0000000000000000000 ) ) ;
#289 = VERTEX_POINT ( 'NONE', #101 ) ;
#290 = DIRECTION ( 'NONE',  ( 0.0000000000000000000, 1.000000000000000000, 0.0000000000000000000 ) ) ;
#291 = CARTESIAN_POINT ( 'NONE',  ( 0.0000000000000000000, -0.3499999999999999778, -0.01250000000000000069 ) ) ;
#292 = VECTOR ( 'NONE', #210, 1000.000000000000000 ) ;
#293 = EDGE_CURVE ( 'NONE', #107, #301, #237, .T. ) ;
#294 = LINE ( 'NONE', #354, #112 ) ;
#295 = VERTEX_POINT ( 'NONE', #239 ) ;
#296 = FACE_OUTER_BOUND ( 'NONE', #128, .T. ) ;
#297 = LINE ( 'NONE', #360, #148 ) ;
#298 = EDGE_CURVE ( 'NONE', #301, #207, #352, .T. ) ;
#299 = FACE_OUTER_BOUND ( 'NONE', #347, .T. ) ;
#300 = AXIS2_PLACEMENT_3D ( 'NONE', #235, #34, #322 ) ;
#301 = VERTEX_POINT ( 'NONE', #137 ) ;
#302 = DIRECTION ( 'NONE',  ( 0.0000000000000000000, 0.0000000000000000000, -1.000000000000000000 ) ) ;
#303 = DIRECTION ( 'NONE',  ( 0.0000000000000000000, 1.000000000000000000, 0.0000000000000000000 ) ) ;
#304 = APPROVAL_ROLE ( '' ) ;
#305 = EDGE_CURVE ( 'NONE', #333, #196, #307, .T. ) ;
#306 = LINE ( 'NONE', #335, #184 ) ;
#307 = LINE ( 'NONE', #339, #240 ) ;
#308 = CLOSED_SHELL ( 'NONE', ( #181, #260, #186, #84, #349, #286, #56, #284, #2, #369 ) ) ;
#309 = CC_DESIGN_APPROVAL ( #92, ( #8 ) ) ;
#310 = EDGE_LOOP ( 'NONE', ( #216, #166, #238, #72 ) ) ;
#311 = PERSON_AND_ORGANIZATION ( #140, #171 ) ;
#312 = CARTESIAN_POINT ( 'NONE',  ( -0.6250000000000000000, 0.3499999999999999778, 0.0000000000000000000 ) ) ;
#313 = SECURITY_CLASSIFICATION_LEVEL ( 'unclassified' ) ;
#314 = VECTOR ( 'NONE', #215, 1000.000000000000000 ) ;
#315 = APPROVAL_ROLE ( '' ) ;
#316 = APPLICATION_CONTEXT ( 'configuration controlled 3d designs of mechanical parts and assemblies' ) ;
#317 = DATE_AND_TIME ( #256, #32 ) ;
#318 = EDGE_CURVE ( 'NONE', #42, #295, #143, .T. ) ;
#319 = ORIENTED_EDGE ( 'NONE', *, *, #222, .F. ) ;
#320 = DIRECTION ( 'NONE',  ( 0.0000000000000000000, 1.000000000000000000, 0.0000000000000000000 ) ) ;
#321 = EDGE_LOOP ( 'NONE', ( #191, #47, #150, #35 ) ) ;
#322 = DIRECTION ( 'NONE',  ( 0.0000000000000000000, 0.0000000000000000000, 1.000000000000000000 ) ) ;
#323 = ORIENTED_EDGE ( 'NONE', *, *, #49, .T. ) ;
#324 = CARTESIAN_POINT ( 'NONE',  ( 0.0000000000000000000, 1.000000000000000000, 0.2999999999999999889 ) ) ;
#325 = CC_DESIGN_PERSON_AND_ORGANIZATION_ASSIGNMENT ( #342, #94, ( #199 ) ) ;
#326 = EDGE_LOOP ( 'NONE', ( #182, #33, #159, #265, #273, #65, #136, #6 ) ) ;
#327 = CARTESIAN_POINT ( 'NONE',  ( 0.0000000000000000000, -1.000000000000000000, 0.0000000000000000000 ) ) ;
#328 = ORIENTED_EDGE ( 'NONE', *, *, #222, .T. ) ;
#329 = LINE ( 'NONE', #291, #3 ) ;
#330 = CC_DESIGN_DATE_AND_TIME_ASSIGNMENT ( #109, #334, ( #8 ) ) ;
#331 = LINE ( 'NONE', #193, #220 ) ;
#332 =( NAMED_UNIT ( * ) SI_UNIT ( $, .STERADIAN. ) SOLID_ANGLE_UNIT ( ) );
#333 = VERTEX_POINT ( 'NONE', #79 ) ;
#334 = DATE_TIME_ROLE ( 'creation_date' ) ;
#335 = CARTESIAN_POINT ( 'NONE',  ( 0.6250000000000000000, 0.0000000000000000000, 0.06000000000000000472 ) ) ;
#336 = DIRECTION ( 'NONE',  ( 0.0000000000000000000, 0.0000000000000000000, -1.000000000000000000 ) ) ;
#337 = PERSON_AND_ORGANIZATION ( #140, #171 ) ;
#338 = ORIENTED_EDGE ( 'NONE', *, *, #205, .T. ) ;
#339 = CARTESIAN_POINT ( 'NONE',  ( 0.6250000000000000000, -0.3499999999999999778, 0.0000000000000000000 ) ) ;
#340 = LOCAL_TIME ( 18, 8, 12.00000000000000000, #60 ) ;
#341 = DIRECTION ( 'NONE',  ( 0.0000000000000000000, 0.0000000000000000000, 1.000000000000000000 ) ) ;
#342 = PERSON_AND_ORGANIZATION ( #140, #171 ) ;
#343 = DATE_AND_TIME ( #201, #340 ) ;
#344 = VECTOR ( 'NONE', #173, 1000.000000000000000 ) ;
#345 = EDGE_CURVE ( 'NONE', #177, #100, #57, .T. ) ;
#346 = AXIS2_PLACEMENT_3D ( 'NONE', #250, #113, #336 ) ;
#347 = EDGE_LOOP ( 'NONE', ( #351, #268, #214, #38 ) ) ;
#348 = PLANE ( 'NONE',  #203 ) ;
#349 = ADVANCED_FACE ( 'NONE', ( #299 ), #248, .T. ) ;
#350 = LINE ( 'NONE', #156, #212 ) ;
#351 = ORIENTED_EDGE ( 'NONE', *, *, #195, .T. ) ;
#352 = LINE ( 'NONE', #272, #31 ) ;
#353 = ORIENTED_EDGE ( 'NONE', *, *, #14, .F. ) ;
#354 = CARTESIAN_POINT ( 'NONE',  ( 0.6250000000000000000, 0.0000000000000000000, 0.2999999999999999889 ) ) ;
#355 = VECTOR ( 'NONE', #117, 1000.000000000000000 ) ;
#356 = APPROVAL_PERSON_ORGANIZATION ( #311, #92, #304 ) ;
#357 = CC_DESIGN_PERSON_AND_ORGANIZATION_ASSIGNMENT ( #337, #18, ( #218 ) ) ;
#358 = ORIENTED_EDGE ( 'NONE', *, *, #254, .T. ) ;
#359 = DATE_AND_TIME ( #245, #263 ) ;
#360 = CARTESIAN_POINT ( 'NONE',  ( -0.6250000000000000000, -0.6750000000000000444, -0.01250000000000000069 ) ) ;
#361 = CALENDAR_DATE ( 2019, 13, 11 ) ;
#362 = LINE ( 'NONE', #134, #262 ) ;
#363 = ORIENTED_EDGE ( 'NONE', *, *, #175, .F. ) ;
#364 = CC_DESIGN_DATE_AND_TIME_ASSIGNMENT ( #89, #121, ( #149 ) ) ;
#365 = COORDINATED_UNIVERSAL_TIME_OFFSET ( 9, 0, .AHEAD. ) ;
#366 = DIRECTION ( 'NONE',  ( -1.000000000000000000, 0.0000000000000000000, 0.0000000000000000000 ) ) ;
#367 = CARTESIAN_POINT ( 'NONE',  ( 0.6250000000000000000, -1.000000000000000000, 0.2999999999999999889 ) ) ;
#368 = CALENDAR_DATE ( 2019, 13, 11 ) ;
#369 = ADVANCED_FACE ( 'NONE', ( #170 ), #167, .T. ) ;
ENDSEC;
END-ISO-10303-21;
